Tommy Emmanuel - Pink Panther Guitar tab download free or play online

Guitar tab for Pink Panther by Tommy Emmanuel free download and read or play online: file .txt, 2.94 kb has 3639 views and 377 downloads.

Download guitar tab "Pink Panther" (Tommy Emmanuel)

Tommy Emmanuel Band name
Pink Panther Song name
Guitar tabs Tab type
2.94 kb File size
.TXT File type
3639 views
377 downloads
 
Are you robot?

Pink Panther guitar tab read and play online

                    



Phil Emmanuel is sooo good, and this is a really good song, so have fun with it.



e------------------------------------/-------------------------------------------

 ------------------------------------/-------------------------------------------

 ------------------------------------/-------------------------------------------

 -----6---------7---------8--------9-/---7--------8--------6------5--------------

 -----4---------5---------6--------7-/---5--------6--------4------3--------------

E------------------------------------/-------------------------------------------



e--------------------------------------------------------------------------------

 --------------------------------------------------------------------------------

 -----------------------------------5-4-----------4-3----2/0---------------------

 ---------------4-5----------4-5--------------5----------------2/0---------------

 -----4-5-6-7---------6-7------------------7-------------------------------------

E--------------------------------------------------------------------------------



e--------------------------------------------------------------------------------

 -------------------------------------------5-4----------------------------------

 -----------------------------------5-4------------------------------------------

 ---------------4-5----------4-5-------------------------------------------------

 -----4-5-6-7---------6-7--------------------------------------------------------

E--------------------------------------------------------------------------------



e--------------------------------------------------------------------------------

 --------------------------------------------------------------------------------

 -----------------------------------5-4-----------4-3----2/0---------------------

 ---------------4-5----------4-5--------------5----------------2/0---------------

 -----4-5-6-7---------6-7------------------7-------------------------------------

E--------------------------------------------------------------------------------



e--------------------------------------------------------------------------------

 --------------------------------------------------------------------------------

 -----9-7------------------------------------------------------------------------

 -----------9-7-5-------7/8---7/8---7/8----5-------------------------------------

 ------------------7----------------------------7--------------------------------

E--------------------------------------------------------------------------------



e------------------------------------

 ------------------------------------

 ------------------------------------

 -----6---------7---------8--------9-

 -----4---------5---------6--------7-

E------------------------------------



Ok thats the main thing, the solos i dont no, there really hard to figure out, well enjoy that part of it, Cya



                    

Comments for guitar tab — Pink Panther (Tommy Emmanuel)

Other Pink Panther by Tommy Emmanuel tabs:

Last viewed Tommy Emmanuel tabs: